  0
SECTION
  2
HEADER
  9
$ACADVER
  1
AC1015
  9
$ACADMAINTVER
 70
     6
  9
$DWGCODEPAGE
  3
ANSI_1254
  9
$INSBASE
 10
0.0
 20
0.0
 30
0.0
  9
$EXTMIN
 10
0.0
 20
0.0
 30
0.0
  9
$EXTMAX
 10
279.4
 20
215.9
 30
0.0
  9
$LIMMIN
 10
0.0
 20
0.0
  9
$LIMMAX
 10
279.4
 20
215.9
  9
$ORTHOMODE
 70
     0
  9
$REGENMODE
 70
     1
  9
$FILLMODE
 70
     1
  9
$QTEXTMODE
 70
     0
  9
$MIRRTEXT
 70
     1
  9
$LTSCALE
 40
1.0
  9
$ATTMODE
 70
     1
  9
$TEXTSIZE
 40
3.5
  9
$TRACEWID
 40
1.0
  9
$TEXTSTYLE
  7
Standard
  9
$CLAYER
  8
0
  9
$CELTYPE
  6
ByLayer
  9
$CECOLOR
 62
   256
  9
$CELTSCALE
 40
1.0
  9
$DISPSILH
 70
     0
  9
$DIMSCALE
 40
1.0
  9
$DIMASZ
 40
3.5
  9
$DIMEXO
 40
1.0
  9
$DIMDLI
 40
3.75
  9
$DIMRND
 40
0.0
  9
$DIMDLE
 40
0.0
  9
$DIMEXE
 40
1.0
  9
$DIMTP
 40
0.0
  9
$DIMTM
 40
0.0
  9
$DIMTXT
 40
3.5
  9
$DIMCEN
 40
2.5
  9
$DIMTSZ
 40
0.0
  9
$DIMTOL
 70
     0
  9
$DIMLIM
 70
     0
  9
$DIMTIH
 70
     1
  9
$DIMTOH
 70
     1
  9
$DIMSE1
 70
     0
  9
$DIMSE2
 70
     0
  9
$DIMTAD
 70
     1
  9
$DIMZIN
 70
     0
  9
$DIMBLK
  1

  9
$DIMASO
 70
     1
  9
$DIMSHO
 70
     1
  9
$DIMPOST
  1

  9
$DIMAPOST
  1

  9
$DIMALT
 70
     0
  9
$DIMALTD
 70
     3
  9
$DIMALTF
 40
0.0393700787
  9
$DIMLFAC
 40
1.0
  9
$DIMTOFL
 70
     1
  9
$DIMTVP
 40
0.0
  9
$DIMTIX
 70
     0
  9
$DIMSOXD
 70
     0
  9
$DIMSAH
 70
     0
  9
$DIMBLK1
  1

  9
$DIMBLK2
  1

  9
$DIMSTYLE
  2
ISO-25
  9
$DIMCLRD
 70
     0
  9
$DIMCLRE
 70
     0
  9
$DIMCLRT
 70
     0
  9
$DIMTFAC
 40
1.0
  9
$DIMGAP
 40
1.524
  9
$DIMJUST
 70
     0
  9
$DIMSD1
 70
     0
  9
$DIMSD2
 70
     0
  9
$DIMTOLJ
 70
     0
  9
$DIMTZIN
 70
     0
  9
$DIMALTZ
 70
     0
  9
$DIMALTTZ
 70
     0
  9
$DIMUPT
 70
     0
  9
$DIMDEC
 70
     2
  9
$DIMTDEC
 70
     2
  9
$DIMALTU
 70
     2
  9
$DIMALTTD
 70
     3
  9
$DIMTXSTY
  7
Standard
  9
$DIMAUNIT
 70
     0
  9
$DIMADEC
 70
     2
  9
$DIMALTRND
 40
0.0
  9
$DIMAZIN
 70
     0
  9
$DIMDSEP
 70
    44
  9
$DIMATFIT
 70
     3
  9
$DIMFRAC
 70
     0
  9
$DIMLDRBLK
  1

  9
$DIMLUNIT
 70
     2
  9
$DIMLWD
 70
    -2
  9
$DIMLWE
 70
    -2
  9
$DIMTMOVE
 70
     0
  9
$LUNITS
 70
     2
  9
$LUPREC
 70
     2
  9
$SKETCHINC
 40
1.0
  9
$FILLETRAD
 40
10.0
  9
$AUNITS
 70
     0
  9
$AUPREC
 70
     2
  9
$MENU
  1
.
  9
$ELEVATION
 40
0.0
  9
$PELEVATION
 40
0.0
  9
$THICKNESS
 40
0.0
  9
$LIMCHECK
 70
     0
  9
$CHAMFERA
 40
0.0
  9
$CHAMFERB
 40
0.0
  9
$CHAMFERC
 40
0.0
  9
$CHAMFERD
 40
0.0
  9
$SKPOLY
 70
     0
  9
$TDCREATE
 40
2459935.700537535
  9
$TDUCREATE
 40
2459935.575537535
  9
$TDUPDATE
 40
2459935.700537708
  9
$TDUUPDATE
 40
2459935.575537708
  9
$TDINDWG
 40
0.0000000116
  9
$TDUSRTIMER
 40
0.0000000116
  9
$USRTIMER
 70
     1
  9
$ANGBASE
 50
0.0
  9
$ANGDIR
 70
     0
  9
$PDMODE
 70
     0
  9
$PDSIZE
 40
-1.0
  9
$PLINEWID
 40
0.0
  9
$SPLFRAME
 70
     0
  9
$SPLINETYPE
 70
     6
  9
$SPLINESEGS
 70
     8
  9
$HANDSEED
  5
D2
  9
$SURFTAB1
 70
     6
  9
$SURFTAB2
 70
     6
  9
$SURFTYPE
 70
     6
  9
$SURFU
 70
     6
  9
$SURFV
 70
     6
  9
$UCSBASE
  2

  9
$UCSNAME
  2

  9
$UCSORG
 10
0.0
 20
0.0
 30
0.0
  9
$UCSXDIR
 10
1.0
 20
0.0
 30
0.0
  9
$UCSYDIR
 10
0.0
 20
1.0
 30
0.0
  9
$UCSORTHOREF
  2

  9
$UCSORTHOVIEW
 70
     0
  9
$UCSORGTOP
 10
0.0
 20
0.0
 30
0.0
  9
$UCSORGBOTTOM
 10
0.0
 20
0.0
 30
0.0
  9
$UCSORGLEFT
 10
0.0
 20
0.0
 30
0.0
  9
$UCSORGRIGHT
 10
0.0
 20
0.0
 30
0.0
  9
$UCSORGFRONT
 10
0.0
 20
0.0
 30
0.0
  9
$UCSORGBACK
 10
0.0
 20
0.0
 30
0.0
  9
$PUCSBASE
  2

  9
$PUCSNAME
  2

  9
$PUCSORG
 10
0.0
 20
0.0
 30
0.0
  9
$PUCSXDIR
 10
1.0
 20
0.0
 30
0.0
  9
$PUCSYDIR
 10
0.0
 20
1.0
 30
0.0
  9
$PUCSORTHOREF
  2

  9
$PUCSORTHOVIEW
 70
     0
  9
$PUCSORGTOP
 10
0.0
 20
0.0
 30
0.0
  9
$PUCSORGBOTTOM
 10
0.0
 20
0.0
 30
0.0
  9
$PUCSORGLEFT
 10
0.0
 20
0.0
 30
0.0
  9
$PUCSORGRIGHT
 10
0.0
 20
0.0
 30
0.0
  9
$PUCSORGFRONT
 10
0.0
 20
0.0
 30
0.0
  9
$PUCSORGBACK
 10
0.0
 20
0.0
 30
0.0
  9
$USERI1
 70
     0
  9
$USERI2
 70
     0
  9
$USERI3
 70
     0
  9
$USERI4
 70
     0
  9
$USERI5
 70
     0
  9
$USERR1
 40
0.0
  9
$USERR2
 40
0.0
  9
$USERR3
 40
0.0
  9
$USERR4
 40
0.0
  9
$USERR5
 40
0.0
  9
$WORLDVIEW
 70
     1
  9
$SHADEDGE
 70
     3
  9
$SHADEDIF
 70
    70
  9
$TILEMODE
 70
     1
  9
$MAXACTVP
 70
    64
  9
$PINSBASE
 10
0.0
 20
0.0
 30
0.0
  9
$PLIMCHECK
 70
     0
  9
$PEXTMIN
 10
1.0000000000E+20
 20
1.0000000000E+20
 30
1.0000000000E+20
  9
$PEXTMAX
 10
-1.0000000000E+20
 20
-1.0000000000E+20
 30
-1.0000000000E+20
  9
$PLIMMIN
 10
0.0
 20
0.0
  9
$PLIMMAX
 10
420.0
 20
297.0
  9
$UNITMODE
 70
     0
  9
$VISRETAIN
 70
     1
  9
$PLINEGEN
 70
     0
  9
$PSLTSCALE
 70
     1
  9
$TREEDEPTH
 70
  3020
  9
$CMLSTYLE
  2
Standard
  9
$CMLJUST
 70
     0
  9
$CMLSCALE
 40
20.0
  9
$PROXYGRAPHICS
 70
     1
  9
$MEASUREMENT
 70
     1
  9
$CELWEIGHT
370
    -1
  9
$ENDCAPS
280
     0
  9
$JOINSTYLE
280
     0
  9
$LWDISPLAY
290
     1
  9
$INSUNITS
 70
     4
  9
$HYPERLINKBASE
  1

  9
$STYLESHEET
  1

  9
$XEDIT
290
     1
  9
$CEPSNTYPE
380
     0
  9
$PSTYLEMODE
290
     1
  9
$FINGERPRINTGUID
  2
{91634cb7-3cba-414a-bdb6-aa03e8463e1b}
  9
$VERSIONGUID
  2
{FAEB1C32-E019-11D5-929B-00C0DF256EC4}
  9
$EXTNAMES
290
     1
  9
$PSVPSCALE
 40
0.0
  9
$OLESTARTUP
290
     0
  0
ENDSEC
  0
SECTION
  2
CLASSES
  0
CLASS
  1
ACDBDICTIONARYWDFLT
  2
AcDbDictionaryWithDefault
  3
ObjectDBX Classes
 90
        0
280
     0
281
     0
  0
CLASS
  1
VISUALSTYLE
  2
AcDbVisualStyle
  3
ObjectDBX Classes
 90
     4095
280
     0
281
     0
  0
CLASS
  1
MATERIAL
  2
AcDbMaterial
  3
ObjectDBX Classes
 90
     1153
280
     0
281
     0
  0
CLASS
  1
SCALE
  2
AcDbScale
  3
ObjectDBX Classes
 90
     1153
280
     0
281
     0
  0
CLASS
  1
TABLESTYLE
  2
AcDbTableStyle
  3
ObjectDBX Classes
 90
     4095
280
     0
281
     0
  0
CLASS
  1
MLEADERSTYLE
  2
AcDbMLeaderStyle
  3
ACDB_MLEADERSTYLE_CLASS
 90
     4095
280
     0
281
     0
  0
CLASS
  1
SUN
  2
AcDbSun
  3
SCENEOE
 90
     1153
280
     0
281
     0
  0
CLASS
  1
ACDBPLACEHOLDER
  2
AcDbPlaceHolder
  3
ObjectDBX Classes
 90
        0
280
     0
281
     0
  0
CLASS
  1
LAYOUT
  2
AcDbLayout
  3
ObjectDBX Classes
 90
        0
280
     0
281
     0
  0
ENDSEC
  0
SECTION
  2
TABLES
  0
TABLE
  2
VPORT
  5
8
330
0
100
AcDbSymbolTable
 70
     1
  0
VPORT
  5
29
330
8
100
AcDbSymbolTableRecord
100
AcDbViewportTableRecord
  2
*Active
 70
     0
 10
0.0
 20
0.0
 11
1.0
 21
1.0
 12
139.7
 22
107.95
 13
0.0
 23
0.0
 14
10.0
 24
10.0
 15
10.0
 25
10.0
 16
0.0
 26
0.0
 36
1.0
 17
0.0
 27
0.0
 37
0.0
 40
215.9
 41
1.2941176471
 42
50.0
 43
0.0
 44
0.0
 50
0.0
 51
0.0
 71
     0
 72
  2000
 73
     1
 74
     3
 75
     0
 76
     0
 77
     0
 78
     0
281
     0
 65
     1
110
0.0
120
0.0
130
0.0
111
1.0
121
0.0
131
0.0
112
0.0
122
1.0
132
0.0
 79
     0
146
0.0
  0
ENDTAB
  0
TABLE
  2
LTYPE
  5
5
330
0
100
AcDbSymbolTable
 70
     6
  0
LTYPE
  5
14
330
5
100
AcDbSymbolTableRecord
100
AcDbLinetypeTableRecord
  2
ByBlock
 70
     0
  3

 72
    65
 73
     0
 40
0.0
  0
LTYPE
  5
15
330
5
100
AcDbSymbolTableRecord
100
AcDbLinetypeTableRecord
  2
ByLayer
 70
     0
  3

 72
    65
 73
     0
 40
0.0
  0
LTYPE
  5
16
330
5
100
AcDbSymbolTableRecord
100
AcDbLinetypeTableRecord
  2
Continuous
 70
     0
  3
Solid line
 72
    65
 73
     0
 40
0.0
  0
LTYPE
  5
6E
330
5
100
AcDbSymbolTableRecord
100
AcDbLinetypeTableRecord
  2
HIDDEN
 70
     0
  3
Hidden __ __ __ __ __ __ __ __ __ __ __ __ __ __
 72
    65
 73
     2
 40
1.905
 49
1.27
 74
     0
 49
-0.635
 74
     0
  0
LTYPE
  5
6F
330
5
100
AcDbSymbolTableRecord
100
AcDbLinetypeTableRecord
  2
PHANTOM
 70
     0
  3
Phantom ______  __  __  ______  __  __  ______
 72
    65
 73
     6
 40
12.7
 49
6.35
 74
     0
 49
-1.27
 74
     0
 49
1.27
 74
     0
 49
-1.27
 74
     0
 49
1.27
 74
     0
 49
-1.27
 74
     0
  0
LTYPE
  5
70
330
5
100
AcDbSymbolTableRecord
100
AcDbLinetypeTableRecord
  2
CENTER
 70
     0
  3
Center ____ _ ____ _ ____ _ ____ _ ____ _ ____
 72
    65
 73
     4
 40
10.16
 49
6.35
 74
     0
 49
-1.27
 74
     0
 49
1.27
 74
     0
 49
-1.27
 74
     0
  0
LTYPE
  5
71
330
5
100
AcDbSymbolTableRecord
100
AcDbLinetypeTableRecord
  2
CENTERX2
 70
     0
  3
Center (2x) ________  __  ________  __  _____
 72
    65
 73
     4
 40
20.32
 49
12.7
 74
     0
 49
-2.54
 74
     0
 49
2.54
 74
     0
 49
-2.54
 74
     0
  0
LTYPE
  5
72
330
5
100
AcDbSymbolTableRecord
100
AcDbLinetypeTableRecord
  2
DOT2
 70
     0
  3
Dot (.5x) ........................................
 72
    65
 73
     2
 40
0.635
 49
0.0
 74
     0
 49
-0.635
 74
     0
  0
ENDTAB
  0
TABLE
  2
LAYER
  5
2
330
0
100
AcDbSymbolTable
 70
    17
  0
LAYER
  5
10
330
2
100
AcDbSymbolTableRecord
100
AcDbLayerTableRecord
  2
0
 70
     0
 62
     7
  6
Continuous
370
    -3
390
F
  0
LAYER
  5
73
330
2
100
AcDbSymbolTableRecord
100
AcDbLayerTableRecord
  2
FORMAT
 70
     0
 62
     7
  6
Continuous
370
    -3
390
F
  0
LAYER
  5
74
330
2
100
AcDbSymbolTableRecord
100
AcDbLayerTableRecord
  2
YARDIMCI_GEOMETRI
 70
     0
 62
    -6
  6
Continuous
290
     0
370
    -3
390
F
  0
LAYER
  5
75
330
2
100
AcDbSymbolTableRecord
100
AcDbLayerTableRecord
  2
SAYFA_CERCEVESI
 70
     0
 62
     7
  6
Continuous
370
    25
390
F
  0
LAYER
  5
76
330
2
100
AcDbSymbolTableRecord
100
AcDbLayerTableRecord
  2
ANTET
 70
     0
 62
     7
  6
Continuous
370
    -3
390
F
  0
LAYER
  5
77
330
2
100
AcDbSymbolTableRecord
100
AcDbLayerTableRecord
  2
OLCU
 70
     0
 62
   150
  6
Continuous
370
    -3
390
F
  0
LAYER
  5
78
330
2
100
AcDbSymbolTableRecord
100
AcDbLayerTableRecord
  2
METIN
 70
     0
 62
    96
  6
Continuous
370
    -3
390
F
  0
LAYER
  5
79
330
2
100
AcDbSymbolTableRecord
100
AcDbLayerTableRecord
  2
BALON
 70
     0
 62
     5
  6
Continuous
370
    -3
390
F
  0
LAYER
  5
7A
330
2
100
AcDbSymbolTableRecord
100
AcDbLayerTableRecord
  2
VURGU
 70
     0
 62
     7
  6
Continuous
370
    -3
390
F
  0
LAYER
  5
7B
330
2
100
AcDbSymbolTableRecord
100
AcDbLayerTableRecord
  2
SILIK
 70
     0
 62
     7
  6
Continuous
370
    -3
390
F
  0
LAYER
  5
7C
330
2
100
AcDbSymbolTableRecord
100
AcDbLayerTableRecord
  2
MODEL
 70
     0
 62
     7
  6
Continuous
370
    -3
390
F
  0
LAYER
  5
7D
330
2
100
AcDbSymbolTableRecord
100
AcDbLayerTableRecord
  2
DETAYLANDıRMA
 70
     0
 62
   190
  6
Continuous
370
    -3
390
F
  0
LAYER
  5
7E
330
2
100
AcDbSymbolTableRecord
100
AcDbLayerTableRecord
  2
TOLERANS
 70
     0
 62
   230
  6
Continuous
370
    -3
390
F
  0
LAYER
  5
7F
330
2
100
AcDbSymbolTableRecord
100
AcDbLayerTableRecord
  2
MERKEZ_CIZGILERI
 70
     0
 62
    30
  6
Continuous
370
    -3
390
F
  0
LAYER
  5
80
330
2
100
AcDbSymbolTableRecord
100
AcDbLayerTableRecord
  2
KESIT-DETAY_CIZGILERI
 70
     0
 62
     7
  6
Continuous
370
    -3
390
F
  0
LAYER
  5
81
330
2
100
AcDbSymbolTableRecord
100
AcDbLayerTableRecord
  2
\U+041E\U+0421\U+0415\U+0412\U+042B\U+0415
 70
     0
 62
     7
  6
Continuous
370
    -3
390
F
  0
LAYER
  5
82
330
2
100
AcDbSymbolTableRecord
100
AcDbLayerTableRecord
  2
\U+0412\U+041E\U+0414\U+042F\U+041D\U+042B\U+0415_\U+0417\U+041D\U+0410\U+041A\U+0418
 70
     0
 62
    11
  6
Continuous
370
    -3
390
F
  0
ENDTAB
  0
TABLE
  2
STYLE
  5
3
330
0
100
AcDbSymbolTable
 70
     1
  0
STYLE
  5
11
330
3
100
AcDbSymbolTableRecord
100
AcDbTextStyleTableRecord
  2
Standard
 70
     0
 40
0.0
 41
1.0
 50
0.0
 71
     0
 42
3.5
  3
txt
  4

  0
ENDTAB
  0
TABLE
  2
VIEW
  5
6
330
0
100
AcDbSymbolTable
 70
     0
  0
ENDTAB
  0
TABLE
  2
UCS
  5
7
330
0
100
AcDbSymbolTable
 70
     0
  0
ENDTAB
  0
TABLE
  2
APPID
  5
9
330
0
100
AcDbSymbolTable
 70
     1
  0
APPID
  5
12
330
9
100
AcDbSymbolTableRecord
100
AcDbRegAppTableRecord
  2
ACAD
 70
     0
  0
ENDTAB
  0
TABLE
  2
DIMSTYLE
  5
A
330
0
100
AcDbSymbolTable
 70
     1
100
AcDbDimStyleTable
  0
DIMSTYLE
105
27
330
A
100
AcDbSymbolTableRecord
100
AcDbDimStyleTableRecord
  2
ISO-25
 70
     0
 41
2.5
 42
0.625
 43
3.75
 44
1.25
 73
     0
 74
     0
 77
     1
 78
     8
140
2.5
141
2.5
143
0.0393700787
147
0.625
171
     3
172
     1
178
     0
271
     2
272
     2
274
     3
278
    44
283
     0
284
     8
340
11
  0
ENDTAB
  0
TABLE
  2
BLOCK_RECORD
  5
1
330
0
100
AcDbSymbolTable
 70
     3
  0
BLOCK_RECORD
  5
1F
330
1
100
AcDbSymbolTableRecord
100
AcDbBlockTableRecord
  2
*Model_Space
340
22
  0
BLOCK_RECORD
  5
1B
330
1
100
AcDbSymbolTableRecord
100
AcDbBlockTableRecord
  2
*Paper_Space
340
1E
  0
BLOCK_RECORD
  5
23
330
1
100
AcDbSymbolTableRecord
100
AcDbBlockTableRecord
  2
*Paper_Space0
340
26
  0
BLOCK_RECORD
  5
88
330
1
100
AcDbSymbolTableRecord
100
AcDbBlockTableRecord
  2
SW_CENTERMARKSYMBOL_0
340
0
102
{BLKREFS
331
93
102
}
  0
BLOCK_RECORD
  5
BB
330
1
100
AcDbSymbolTableRecord
100
AcDbBlockTableRecord
  2
SW_CENTERMARKSYMBOL_1
340
0
102
{BLKREFS
331
C6
102
}
  0
ENDTAB
  0
ENDSEC
  0
SECTION
  2
BLOCKS
  0
BLOCK
  5
20
330
1F
100
AcDbEntity
  8
0
100
AcDbBlockBegin
  2
*Model_Space
 70
     0
 10
0.0
 20
0.0
 30
0.0
  3
*Model_Space
  1

  0
ENDBLK
  5
21
330
1F
100
AcDbEntity
  8
0
100
AcDbBlockEnd
  0
BLOCK
  5
1C
330
1B
100
AcDbEntity
 67
     1
  8
0
100
AcDbBlockBegin
  2
*Paper_Space
 70
     0
 10
0.0
 20
0.0
 30
0.0
  3
*Paper_Space
  1

  0
ENDBLK
  5
1D
330
1B
100
AcDbEntity
 67
     1
  8
0
100
AcDbBlockEnd
  0
BLOCK
  5
24
330
23
100
AcDbEntity
  8
0
100
AcDbBlockBegin
  2
*Paper_Space0
 70
     0
 10
0.0
 20
0.0
 30
0.0
  3
*Paper_Space0
  1

  0
ENDBLK
  5
25
330
23
100
AcDbEntity
  8
0
100
AcDbBlockEnd
  0
BLOCK
  5
89
330
88
100
AcDbEntity
  8
0
100
AcDbBlockBegin
  2
SW_CENTERMARKSYMBOL_0
 70
     0
 10
0.0
 20
0.0
 30
0.0
  3
SW_CENTERMARKSYMBOL_0
  1

  0
LINE
  5
8B
330
88
100
AcDbEntity
  8
FORMAT
 62
     0
100
AcDbLine
 10
0.0
 20
0.0
 30
0.0
 11
0.0
 21
2.5
 31
0.0
  0
LINE
  5
8C
330
88
100
AcDbEntity
  8
FORMAT
 62
     0
100
AcDbLine
 10
0.0
 20
0.0
 30
0.0
 11
-2.5
 21
0.0
 31
0.0
  0
LINE
  5
8D
330
88
100
AcDbEntity
  8
FORMAT
 62
     0
100
AcDbLine
 10
0.0
 20
0.0
 30
0.0
 11
0.0
 21
-2.5
 31
0.0
  0
LINE
  5
8E
330
88
100
AcDbEntity
  8
FORMAT
 62
     0
100
AcDbLine
 10
0.0
 20
0.0
 30
0.0
 11
2.5
 21
0.0
 31
0.0
  0
LINE
  5
8F
330
88
100
AcDbEntity
  8
FORMAT
 62
     0
100
AcDbLine
 10
0.0
 20
5.0
 30
0.0
 11
0.0
 21
82.5
 31
0.0
  0
LINE
  5
90
330
88
100
AcDbEntity
  8
FORMAT
 62
     0
100
AcDbLine
 10
-5.0
 20
0.0
 30
0.0
 11
-82.5
 21
0.0
 31
0.0
  0
LINE
  5
91
330
88
100
AcDbEntity
  8
FORMAT
 62
     0
100
AcDbLine
 10
0.0
 20
-5.0
 30
0.0
 11
0.0
 21
-82.5
 31
0.0
  0
LINE
  5
92
330
88
100
AcDbEntity
  8
FORMAT
 62
     0
100
AcDbLine
 10
5.0
 20
0.0
 30
0.0
 11
82.5
 21
0.0
 31
0.0
  0
ENDBLK
  5
8A
330
88
100
AcDbEntity
  8
0
100
AcDbBlockEnd
  0
BLOCK
  5
BC
330
BB
100
AcDbEntity
  8
0
100
AcDbBlockBegin
  2
SW_CENTERMARKSYMBOL_1
 70
     0
 10
0.0
 20
0.0
 30
0.0
  3
SW_CENTERMARKSYMBOL_1
  1

  0
LINE
  5
BE
330
BB
100
AcDbEntity
  8
FORMAT
 62
     0
100
AcDbLine
 10
0.0
 20
0.0
 30
0.0
 11
0.0
 21
2.5
 31
0.0
  0
LINE
  5
BF
330
BB
100
AcDbEntity
  8
FORMAT
 62
     0
100
AcDbLine
 10
0.0
 20
0.0
 30
0.0
 11
-2.5
 21
0.0
 31
0.0
  0
LINE
  5
C0
330
BB
100
AcDbEntity
  8
FORMAT
 62
     0
100
AcDbLine
 10
0.0
 20
0.0
 30
0.0
 11
0.0
 21
-2.5
 31
0.0
  0
LINE
  5
C1
330
BB
100
AcDbEntity
  8
FORMAT
 62
     0
100
AcDbLine
 10
0.0
 20
0.0
 30
0.0
 11
2.5
 21
0.0
 31
0.0
  0
LINE
  5
C2
330
BB
100
AcDbEntity
  8
FORMAT
 62
     0
100
AcDbLine
 10
0.0
 20
5.0
 30
0.0
 11
0.0
 21
82.5
 31
0.0
  0
LINE
  5
C3
330
BB
100
AcDbEntity
  8
FORMAT
 62
     0
100
AcDbLine
 10
-5.0
 20
0.0
 30
0.0
 11
-82.5
 21
0.0
 31
0.0
  0
LINE
  5
C4
330
BB
100
AcDbEntity
  8
FORMAT
 62
     0
100
AcDbLine
 10
0.0
 20
-5.0
 30
0.0
 11
0.0
 21
-82.5
 31
0.0
  0
LINE
  5
C5
330
BB
100
AcDbEntity
  8
FORMAT
 62
     0
100
AcDbLine
 10
5.0
 20
0.0
 30
0.0
 11
82.5
 21
0.0
 31
0.0
  0
ENDBLK
  5
BD
330
BB
100
AcDbEntity
  8
0
100
AcDbBlockEnd
  0
ENDSEC
  0
SECTION
  2
ENTITIES
  0
LINE
  5
83
330
1F
100
AcDbEntity
  8
0
  6
Continuous
 62
     7
370
    25
100
AcDbLine
 10
61.7605325385
 20
19.5692788693
 30
0.0
 11
269.7605325385
 21
19.5692788693
 31
0.0
  0
LINE
  5
84
330
1F
100
AcDbEntity
  8
0
  6
Continuous
 62
     7
370
    25
100
AcDbLine
 10
269.7605325385
 20
179.5692788693
 30
0.0
 11
61.7605325385
 21
179.5692788693
 31
0.0
  0
CIRCLE
  5
85
330
1F
100
AcDbEntity
  8
0
  6
Continuous
 62
     7
370
    25
100
AcDbCircle
 10
61.7605325385
 20
99.5692788693
 30
0.0
 40
70.49999999999999
  0
CIRCLE
  5
86
330
1F
100
AcDbEntity
  8
0
  6
Continuous
 62
     7
370
    25
100
AcDbCircle
 10
61.7605325385
 20
99.5692788693
 30
0.0
 40
79.99999999999999
  0
LINE
  5
87
330
1F
100
AcDbEntity
  8
0
  6
Continuous
 62
     7
370
    25
100
AcDbLine
 10
269.7605325385
 20
179.5692788693
 30
0.0
 11
269.7605325385
 21
19.5692788693
 31
0.0
  0
INSERT
  5
93
330
1F
100
AcDbEntity
  8
FORMAT
100
AcDbBlockReference
  2
SW_CENTERMARKSYMBOL_0
 10
61.7605325385
 20
99.5692788693
 30
0.0
  0
LINE
  5
94
330
1F
100
AcDbEntity
  8
0
  6
Continuous
 62
     7
370
    25
100
AcDbLine
 10
141.7605325385
 20
600.7778984843
 30
0.0
 11
141.7605325385
 21
729.2778984843
 31
0.0
  0
LINE
  5
95
330
1F
100
AcDbEntity
  8
0
  6
Continuous
 62
     7
370
    25
100
AcDbLine
 10
141.7605325385
 20
312.2778984843
 30
0.0
 11
141.7605325385
 21
440.7778984843
 31
0.0
  0
LINE
  5
96
330
1F
100
AcDbEntity
  8
0
  6
Continuous
 62
     7
370
    25
100
AcDbLine
 10
-18.2394674615
 20
729.2778984843
 30
0.0
 11
-18.2394674615
 21
312.2778984843
 31
0.0
  0
LINE
  5
97
330
1F
100
AcDbEntity
  8
0
  6
Continuous
 62
     7
370
    25
100
AcDbLine
 10
141.7605325385
 20
440.7778984843
 30
0.0
 11
269.7605325385
 21
440.7778984843
 31
0.0
  0
LINE
  5
98
330
1F
100
AcDbEntity
  8
0
  6
Continuous
 62
     7
370
    25
100
AcDbLine
 10
269.7605325385
 20
600.7778984843
 30
0.0
 11
141.7605325385
 21
600.7778984843
 31
0.0
  0
LINE
  5
99
330
1F
100
AcDbEntity
  8
0
  6
Continuous
 62
     7
370
    25
100
AcDbLine
 10
141.7605325385
 20
600.7778984843
 30
0.0
 11
61.7605325385
 21
520.7778984843
 31
0.0
  0
LINE
  5
9A
330
1F
100
AcDbEntity
  8
0
  6
Continuous
 62
     7
370
    25
100
AcDbLine
 10
61.7605325385
 20
520.7778984843
 30
0.0
 11
141.7605325385
 21
440.7778984843
 31
0.0
  0
LINE
  5
9B
330
1F
100
AcDbEntity
  8
0
  6
Continuous
 62
     7
370
    25
100
AcDbLine
 10
-18.2394674615
 20
729.2778984843
 30
0.0
 11
141.7605325385
 21
729.2778984843
 31
0.0
  0
LINE
  5
9C
330
1F
100
AcDbEntity
  8
0
  6
Continuous
 62
     7
370
    25
100
AcDbLine
 10
-18.2394674615
 20
312.2778984843
 30
0.0
 11
141.7605325385
 21
312.2778984843
 31
0.0
  0
LINE
  5
9D
330
1F
100
AcDbEntity
  8
0
  6
Continuous
 62
     7
370
    25
100
AcDbLine
 10
269.7605325385
 20
600.7778984843
 30
0.0
 11
269.7605325385
 21
440.7778984843
 31
0.0
  0
LINE
  5
9E
330
1F
100
AcDbEntity
  8
0
  6
Continuous
 62
     7
370
    25
100
AcDbLine
 10
601.1104107913
 20
19.5692788693
 30
0.0
 11
809.6104107913
 21
19.5692788693
 31
0.0
  0
LINE
  5
9F
330
1F
100
AcDbEntity
  8
0
  6
Continuous
 62
     7
370
    25
100
AcDbLine
 10
392.6104107913
 20
19.5692788693
 30
0.0
 11
601.1104107913
 21
19.5692788693
 31
0.0
  0
LINE
  5
A0
330
1F
100
AcDbEntity
  8
0
  6
Continuous
 62
     7
370
    25
100
AcDbLine
 10
601.1104107913
 20
179.5692788693
 30
0.0
 11
392.6104107913
 21
179.5692788693
 31
0.0
  0
LINE
  5
A1
330
1F
100
AcDbEntity
  8
0
  6
Continuous
 62
     7
370
    25
100
AcDbLine
 10
809.6104107913
 20
179.5692788693
 30
0.0
 11
601.1104107913
 21
179.5692788693
 31
0.0
  0
LINE
  5
A2
330
1F
100
AcDbEntity
  8
0
  6
Continuous
 62
     7
370
    25
100
AcDbLine
 10
809.6104107913
 20
179.5692788693
 30
0.0
 11
809.6104107913
 21
19.5692788693
 31
0.0
  0
LINE
  5
A3
330
1F
100
AcDbEntity
  8
0
  6
Continuous
 62
     7
370
    25
100
AcDbLine
 10
392.6104107913
 20
179.5692788693
 30
0.0
 11
392.6104107913
 21
19.5692788693
 31
0.0
  0
LINE
  5
A4
330
1F
100
AcDbEntity
  8
0
  6
Continuous
 62
     7
370
    25
100
AcDbLine
 10
594.8983422393
 20
-168.2394785947
 30
0.0
 11
487.4633276673
 21
-106.2185648346
 31
0.0
  0
LINE
  5
A5
330
1F
100
AcDbEntity
  8
0
  6
Continuous
 62
     7
370
    25
100
AcDbLine
 10
782.3268554221
 20
-276.4396561496
 30
0.0
 11
754.9113460743
 21
-260.6130194825
 31
0.0
  0
LINE
  5
A6
330
1F
100
AcDbEntity
  8
0
  6
Continuous
 62
     7
370
    25
100
AcDbLine
 10
407.4698290565
 20
-244.7863828155
 30
0.0
 11
702.3333568112
 21
-415.0074741305
 31
0.0
  0
LINE
  5
A7
330
1F
100
AcDbEntity
  8
0
  6
Continuous
 62
     7
370
    25
100
AcDbLine
 10
674.8918408502
 20
-306.8072965756
 30
0.0
 11
781.9733020315
 21
-244.9904848434
 31
0.0
  0
LINE
  5
A8
330
1F
100
AcDbEntity
  8
0
  6
Continuous
 62
     7
370
    25
100
AcDbLine
 10
701.9798034207
 20
-106.4226668625
 30
0.0
 11
594.8983422393
 21
-168.2394785947
 31
0.0
  0
LINE
  5
A9
330
1F
100
AcDbEntity
  8
0
  6
Continuous
 62
     7
370
    25
100
AcDbLine
 10
594.8983422393
 20
-168.2394785947
 30
0.0
 11
594.8983422393
 21
-325.9362844334
 31
0.0
  0
ELLIPSE
  5
AA
330
1F
100
AcDbEntity
  8
0
  6
Continuous
 62
     7
370
    25
100
AcDbEllipse
 10
594.8983422393
 20
-260.6130194825
 30
0.0
 11
113.1370849898475
 21
1.705302565824240E-13
 31
0.0
210
0.0
220
0.0
230
1.0
 40
0.5773815452
 41
4.712388980384697
 42
5.49770587972005
  0
LWPOLYLINE
  5
AB
330
1F
100
AcDbEntity
  8
0
  6
Continuous
 62
     7
370
    25
100
AcDbPolyline
 90
       95
 70
   128
 43
0.0
 10
504.0351208568
 20
-142.8461493521
 10
503.9087964353
 20
-138.5559619775
 10
503.5303873663
 20
-134.4307866937
 10
502.9015837167
 20
-130.4890475349
 10
502.025193876
 20
-126.7483492651
 10
500.9051320142
 20
-123.2253987508
 10
499.5464005993
 20
-119.9359303443
 10
497.9550680558
 20
-116.8946356099
 10
496.138241661
 20
-114.1150977083
 10
494.1040358027
 20
-111.6097307304
 10
491.861535738
 20
-109.3897242534
 10
489.4207570167
 20
-107.4649933651
 10
486.792600749
 20
-105.8441343809
 10
483.9888049187
 20
-104.5343864504
 10
481.0218919587
 20
-103.5415992259
 10
477.9051128226
 20
-102.8702067362
 10
474.6523878025
 20
-102.523207583
 10
471.2782443579
 20
-102.5021515489
 10
467.7977522327
 20
-102.8071326751
 10
464.2264561494
 20
-103.436788842
 10
460.5803063835
 20
-104.3883078522
 10
456.8755875248
 20
-105.6574399908
 10
453.1288457471
 20
-107.2385170058
 10
449.3568149087
 20
-109.1244774232
 10
445.5763418151
 20
-111.306898086
 10
441.8043109767
 20
-113.7760317738
 10
438.057569199
 20
-116.5208507361
 10
434.3528503403
 20
-119.5290959452
 10
430.7067005744
 20
-122.7873318476
 10
427.1354044911
 20
-126.2810063708
 10
423.6549123659
 20
-129.9945159164
 10
420.2807689213
 20
-133.9112750493
 10
417.0280439012
 20
-138.0137905723
 10
413.911264765
 20
-142.2837396552
 10
410.9443518051
 20
-146.7020516689
 10
408.1405559748
 20
-151.2489933594
 10
405.5123997071
 20
-155.9042569812
 10
403.0716209858
 20
-160.647050997
 10
400.8291209211
 20
-165.4561929374
 10
398.7949150628
 20
-170.310204007
 10
396.978088668
 20
-175.187405014
 10
395.3867561245
 20
-180.0660131948
 10
394.0280247096
 20
-184.924239501
 10
392.9079628478
 20
-189.7403859145
 10
392.0315730071
 20
-194.4929423563
 10
391.4027693574
 20
-199.1606827556
 10
391.0243602885
 20
-203.7227598508
 10
390.898035867
 20
-208.1587982979
 10
391.0243602885
 20
-212.4489856726
 10
391.4027693574
 20
-216.5741609564
 10
392.0315730071
 20
-220.5159001152
 10
392.9079628478
 20
-224.256598385
 10
394.0280247096
 20
-227.7795488992
 10
395.3867561245
 20
-231.0690173058
 10
396.978088668
 20
-234.1103120401
 10
398.7949150628
 20
-236.8898499417
 10
400.8291209211
 20
-239.3952169196
 10
403.0716209858
 20
-241.6152233966
 10
405.5123997071
 20
-243.539954285
 10
408.1405559748
 20
-245.1608132692
 10
410.9443518051
 20
-246.4705611996
 10
413.911264765
 20
-247.4633484241
 10
417.0280439012
 20
-248.1347409139
 10
420.2807689213
 20
-248.481740067
 10
423.6549123659
 20
-248.5027961012
 10
427.1354044911
 20
-248.197814975
 10
430.7067005744
 20
-247.5681588081
 10
434.3528503403
 20
-246.6166397979
 10
438.057569199
 20
-245.3475076592
 10
441.8043109767
 20
-243.7664306443
 10
445.5763418151
 20
-241.8804702269
 10
449.3568149087
 20
-239.6980495641
 10
453.1288457471
 20
-237.2289158763
 10
456.8755875248
 20
-234.4840969139
 10
460.5803063835
 20
-231.4758517049
 10
464.2264561494
 20
-228.2176158025
 10
467.7977522327
 20
-224.7239412792
 10
471.2782443579
 20
-221.0104317336
 10
474.6523878025
 20
-217.0936726008
 10
477.9051128226
 20
-212.9911570778
 10
481.0218919587
 20
-208.7212079948
 10
483.9888049187
 20
-204.3028959811
 10
486.792600749
 20
-199.7559542907
 10
489.4207570167
 20
-195.1006906688
 10
491.861535738
 20
-190.357896653
 10
494.1040358027
 20
-185.5487547127
 10
496.138241661
 20
-180.6947436431
 10
497.9550680558
 20
-175.8175426361
 10
499.5464005993
 20
-170.9389344553
 10
500.9051320142
 20
-166.0807081491
 10
502.025193876
 20
-161.2645617356
 10
502.9015837167
 20
-156.5120052938
 10
503.5303873663
 20
-151.8442648944
 10
503.9087964353
 20
-147.2821877993
 10
504.0351208568
 20
-142.8461493521
  0
LWPOLYLINE
  5
AC
330
1F
100
AcDbEntity
  8
0
  6
Continuous
 62
     7
370
    25
100
AcDbPolyline
 90
       13
 70
   128
 43
0.0
 10
798.8986486116
 20
-313.0672406672
 10
798.7723241901
 20
-308.7770532925
 10
798.3939151211
 20
-304.6518780087
 10
797.7651114714
 20
-300.7101388499
 10
796.8887216308
 20
-296.9694405801
 10
795.768659769
 20
-293.4464900659
 10
794.4099283541
 20
-290.1570216593
 10
792.8185958105
 20
-287.115726925
 10
791.0017694158
 20
-284.3361890233
 10
788.9675635575
 20
-281.8308220455
 10
786.7250634928
 20
-279.6108155684
 10
784.2842847715
 20
-277.6860846801
 10
782.3268554221
 20
-276.4396561496
  0
LWPOLYLINE
  5
AD
330
1F
100
AcDbEntity
  8
0
  6
Continuous
 62
     7
370
    25
100
AcDbPolyline
 90
       37
 70
   128
 43
0.0
 10
702.3333568112
 20
-415.0074741305
 10
703.0040837296
 20
-415.3819045842
 10
705.8078795599
 20
-416.6916525147
 10
708.7747925198
 20
-417.6844397392
 10
711.891571656
 20
-418.3558322289
 10
715.1442966761
 20
-418.7028313821
 10
718.5184401207
 20
-418.7238874162
 10
721.9989322459
 20
-418.41890629
 10
725.5702283291
 20
-417.7892501231
 10
729.2163780951
 20
-416.8377311129
 10
732.9210969538
 20
-415.5685989743
 10
736.6678387315
 20
-413.9875219593
 10
740.4398695699
 20
-412.1015615419
 10
744.2203426635
 20
-409.9191408791
 10
747.9923735019
 20
-407.4500071913
 10
751.7391152796
 20
-404.705188229
 10
755.4438341383
 20
-401.6969430199
 10
759.0899839042
 20
-398.4387071175
 10
762.6612799875
 20
-394.9450325943
 10
766.1417721127
 20
-391.2315230487
 10
769.5159155573
 20
-387.3147639158
 10
772.7686405774
 20
-383.2122483928
 10
775.8854197135
 20
-378.9422993099
 10
778.8523326735
 20
-374.5239872962
 10
781.6561285037
 20
-369.9770456057
 10
784.2842847715
 20
-365.3217819839
 10
786.7250634928
 20
-360.5789879681
 10
788.9675635575
 20
-355.7698460277
 10
791.0017694158
 20
-350.9158349581
 10
792.8185958105
 20
-346.0386339511
 10
794.4099283541
 20
-341.1600257703
 10
795.768659769
 20
-336.3017994641
 10
796.8887216308
 20
-331.4856530506
 10
797.7651114714
 20
-326.7330966088
 10
798.3939151211
 20
-322.0653562095
 10
798.7723241901
 20
-317.5032791143
 10
798.8986486116
 20
-313.0672406672
  0
LWPOLYLINE
  5
AE
330
1F
100
AcDbEntity
  8
0
  6
Continuous
 62
     7
370
    25
100
AcDbPolyline
 90
       90
 70
   128
 43
0.0
 10
497.3176064355
 20
-146.7240878833
 10
497.1934287784
 20
-142.7351194274
 10
496.8215144538
 20
-138.9093962829
 10
496.2037163203
 20
-135.26597801
 10
495.343112217
 20
-131.8230159353
 10
494.2439896302
 20
-128.5976627227
 10
492.9118243336
 20
-125.6059869195
 10
491.3532531074
 20
-122.8628929043
 10
489.5760406752
 20
-120.3820466334
 10
487.58904102
 20
-118.1758075581
 10
485.402153274
 20
-116.2551670506
 10
483.026272402
 20
-114.6296936451
 10
480.4732349231
 20
-113.3074853685
 10
477.7557599414
 20
-112.2951293959
 10
474.8873857807
 20
-111.5976692339
 10
471.8824025367
 20
-111.2185795937
 10
468.7557808849
 20
-111.1597490811
 10
465.5230974969
 20
-111.4214707866
 10
462.2004574389
 20
-112.0024408259
 10
458.8044139365
 20
-112.8997648354
 10
455.3518859075
 20
-114.1089723921
 10
451.860073673
 20
-115.6240392848
 10
448.3463732659
 20
-117.4374175263
 10
444.8282897648
 20
-119.5400729576
 10
441.3233500848
 20
-121.921530255
 10
437.849015659
 20
-124.569925118
 10
434.4225954469
 20
-127.4720633768
 10
431.0611597015
 20
-130.6134867244
 10
427.7814549266
 20
-133.9785447477
 10
424.5998204466
 20
-137.550472897
 10
421.5321070042
 20
-141.3114760058
 10
418.5935977936
 20
-145.242816946
 10
415.7989323198
 20
-149.3249099746
 10
413.1620334656
 20
-153.5374183095
 10
410.6960381286
 20
-157.8593554462
 10
408.4132317734
 20
-162.2691897111
 10
406.3249872265
 20
-166.7449515318
 10
404.4417080171
 20
-171.2643428881
 10
402.7727765475
 20
-175.8048483995
 10
401.3265073504
 20
-180.343847496
 10
400.1101056662
 20
-184.8587271124
 10
399.1296315469
 20
-189.3269943455
 10
398.3899696651
 20
-193.7263885129
 10
397.8948049793
 20
-198.0349920539
 10
397.6466043749
 20
-202.2313397225
 10
397.6466043749
 20
-206.2945255258
 10
397.8948049793
 20
-210.2043068763
 10
398.3899696651
 20
-213.9412054401
 10
399.1296315469
 20
-217.4866041766
 10
400.1101056662
 20
-220.8228400875
 10
401.3265073504
 20
-223.9332922134
 10
402.7727765475
 20
-226.8024644382
 10
404.4417080171
 20
-229.4160626903
 10
406.3249872265
 20
-231.7610661545
 10
408.4132317734
 20
-233.8257921417
 10
410.6960381286
 20
-235.5999542908
 10
413.1620334656
 20
-237.0747138151
 10
415.7989323198
 20
-238.2427235371
 10
418.5935977936
 20
-239.0981644909
 10
421.5321070042
 20
-239.6367749127
 10
424.5998204466
 20
-239.8558714726
 10
427.7814549266
 20
-239.7543626425
 10
431.0611597015
 20
-239.3327541342
 10
434.4225954469
 20
-238.5931463803
 10
437.849015659
 20
-237.5392240692
 10
441.3233500848
 20
-236.1762377889
 10
444.8282897648
 20
-234.5109778686
 10
448.3463732659
 20
-232.5517405493
 10
451.860073673
 20
-230.3082866528
 10
455.3518859075
 20
-227.7917929537
 10
458.8044139365
 20
-225.0147964969
 10
462.2004574389
 20
-221.9911321391
 10
465.5230974969
 20
-218.7358636241
 10
468.7557808849
 20
-215.2652085357
 10
471.8824025367
 20
-211.5964575032
 10
474.8873857807
 20
-207.7478880595
 10
477.7557599414
 20
-203.7386735842
 10
480.4732349231
 20
-199.5887877819
 10
483.026272402
 20
-195.3189051751
 10
485.402153274
 20
-190.9502981042
 10
487.58904102
 20
-186.5047307497
 10
489.5760406752
 20
-182.0043507046
 10
491.3532531074
 20
-177.471578636
 10
492.9118243336
 20
-172.9289965862
 10
494.2439896302
 20
-168.3992354706
 10
495.343112217
 20
-163.9048623312
 10
496.2037163203
 20
-159.4682679089
 10
496.8215144538
 20
-155.1115550939
 10
497.1934287784
 20
-150.8564288103
 10
497.3176064355
 20
-146.7240878833
  0
LWPOLYLINE
  5
AF
330
1F
100
AcDbEntity
  8
0
  6
Continuous
 62
     7
370
    25
100
AcDbPolyline
 90
       95
 70
   128
 43
0.0
 10
798.545095221
 20
-208.3629003259
 10
798.4187707995
 20
-203.9268618787
 10
798.0403617305
 20
-199.3647847836
 10
797.4115580809
 20
-194.6970443842
 10
796.5351682402
 20
-189.9444879424
 10
795.4151063784
 20
-185.1283415289
 10
794.0563749635
 20
-180.2701152228
 10
792.46504242
 20
-175.3915070419
 10
790.6482160252
 20
-170.5143060349
 10
788.6140101669
 20
-165.6602949653
 10
786.3715101022
 20
-160.851153025
 10
783.9307313809
 20
-156.1083590092
 10
781.3025751132
 20
-151.4530953873
 10
778.4987792829
 20
-146.9061536969
 10
775.5318663229
 20
-142.4878416832
 10
772.4150871868
 20
-138.2178926002
 10
769.1623621667
 20
-134.1153770772
 10
765.7882187221
 20
-130.1986179444
 10
762.3077265969
 20
-126.4851083988
 10
758.7364305136
 20
-122.9914338755
 10
755.0902807477
 20
-119.7331979731
 10
751.385561889
 20
-116.7249527641
 10
747.6388201113
 20
-113.9801338017
 10
743.8667892729
 20
-111.5110001139
 10
740.0863161793
 20
-109.3285794511
 10
736.3142853409
 20
-107.4426190337
 10
732.5675435632
 20
-105.8615420188
 10
728.8628247045
 20
-104.5924098801
 10
725.2166749386
 20
-103.6408908699
 10
721.6453788553
 20
-103.011234703
 10
718.1648867301
 20
-102.7062535768
 10
714.7907432855
 20
-102.727309611
 10
711.5380182654
 20
-103.0743087641
 10
708.4212391292
 20
-103.7457012539
 10
705.4543261693
 20
-104.7384884784
 10
702.650530339
 20
-106.0482364088
 10
700.0223740713
 20
-107.6690953931
 10
697.58159535
 20
-109.5938262814
 10
695.3390952853
 20
-111.8138327584
 10
693.304889427
 20
-114.3191997363
 10
691.4880630322
 20
-117.0987376379
 10
689.8967304887
 20
-120.1400323723
 10
688.5379990738
 20
-123.4295007788
 10
687.417937212
 20
-126.9524512931
 10
686.5415473713
 20
-130.6931495628
 10
685.9127437216
 20
-134.6348887216
 10
685.5343346527
 20
-138.7600640054
 10
685.4080102312
 20
-143.0502513801
 10
685.5343346527
 20
-147.4862898272
 10
685.9127437216
 20
-152.0483669224
 10
686.5415473713
 20
-156.7161073217
 10
687.417937212
 20
-161.4686637635
 10
688.5379990738
 20
-166.284810177
 10
689.8967304887
 20
-171.1430364832
 10
691.4880630322
 20
-176.021644664
 10
693.304889427
 20
-180.8988456711
 10
695.3390952853
 20
-185.7528567406
 10
697.58159535
 20
-190.561998681
 10
700.0223740713
 20
-195.3047926968
 10
702.650530339
 20
-199.9600563186
 10
705.4543261693
 20
-204.5069980091
 10
708.4212391292
 20
-208.9253100228
 10
711.5380182654
 20
-213.1952591057
 10
714.7907432855
 20
-217.2977746287
 10
718.1648867301
 20
-221.2145337616
 10
721.6453788553
 20
-224.9280433072
 10
725.2166749386
 20
-228.4217178305
 10
728.8628247045
 20
-231.6799537329
 10
732.5675435632
 20
-234.6881989419
 10
736.3142853409
 20
-237.4330179042
 10
740.0863161793
 20
-239.902151592
 10
743.8667892729
 20
-242.0845722549
 10
747.6388201113
 20
-243.9705326723
 10
751.385561889
 20
-245.5516096872
 10
755.0902807477
 20
-246.8207418258
 10
758.7364305136
 20
-247.7722608361
 10
762.3077265969
 20
-248.4019170029
 10
765.7882187221
 20
-248.7068981292
 10
769.1623621667
 20
-248.685842095
 10
772.4150871868
 20
-248.3388429418
 10
775.5318663229
 20
-247.6674504521
 10
778.4987792829
 20
-246.6746632276
 10
781.3025751132
 20
-245.3649152971
 10
783.9307313809
 20
-243.7440563129
 10
786.3715101022
 20
-241.8193254246
 10
788.6140101669
 20
-239.5993189476
 10
790.6482160252
 20
-237.0939519697
 10
792.46504242
 20
-234.3144140681
 10
794.0563749635
 20
-231.2731193337
 10
795.4151063784
 20
-227.9836509272
 10
796.5351682402
 20
-224.4607004129
 10
797.4115580809
 20
-220.7200021431
 10
798.0403617305
 20
-216.7782629843
 10
798.4187707995
 20
-212.6530877005
 10
798.545095221
 20
-208.3629003259
  0
LWPOLYLINE
  5
B0
330
1F
100
AcDbEntity
  8
0
  6
Continuous
 62
     7
370
    25
100
AcDbPolyline
 90
       90
 70
   128
 43
0.0
 10
791.8275807997
 20
-204.4849617947
 10
791.7034031426
 20
-200.3526208677
 10
791.331488818
 20
-196.0974945841
 10
790.7136906845
 20
-191.7407817691
 10
789.8530865811
 20
-187.3041873468
 10
788.7539639944
 20
-182.8098142074
 10
787.4217986977
 20
-178.2800530918
 10
785.8632274716
 20
-173.737471042
 10
784.0860150394
 20
-169.2046989734
 10
782.0990153842
 20
-164.7043189284
 10
779.9121276382
 20
-160.2587515739
 10
777.5362467662
 20
-155.8901445029
 10
774.9832092873
 20
-151.6202618961
 10
772.2657343056
 20
-147.4703760938
 10
769.3973601449
 20
-143.4611616185
 10
766.3923769009
 20
-139.6125921748
 10
763.2657552491
 20
-135.9438411423
 10
760.0330718611
 20
-132.4731860539
 10
756.7104318031
 20
-129.2179175389
 10
753.3143883007
 20
-126.1942531811
 10
749.8618602717
 20
-123.4172567243
 10
746.3700480372
 20
-120.9007630252
 10
742.8563476301
 20
-118.6573091287
 10
739.338264129
 20
-116.6980718095
 10
735.833324449
 20
-115.0328118891
 10
732.3589900232
 20
-113.6698256088
 10
728.9325698111
 20
-112.6159032978
 10
725.5711340657
 20
-111.8762955438
 10
722.2914292908
 20
-111.4546870355
 10
719.1097948108
 20
-111.3531782054
 10
716.0420813684
 20
-111.5722747653
 10
713.1035721577
 20
-112.1108851872
 10
710.308906684
 20
-112.9663261409
 10
707.6720078298
 20
-114.1343358629
 10
705.2060124928
 20
-115.6090953873
 10
702.9232061376
 20
-117.3832575363
 10
700.8349615906
 20
-119.4479835235
 10
698.9516823813
 20
-121.7929869877
 10
697.2827509117
 20
-124.4065852398
 10
695.8364817146
 20
-127.2757574646
 10
694.6200800304
 20
-130.3862095905
 10
693.6396059111
 20
-133.7224455014
 10
692.8999440293
 20
-137.2678442379
 10
692.4047793435
 20
-141.0047428017
 10
692.1565787391
 20
-144.9145241523
 10
692.1565787391
 20
-148.9777099555
 10
692.4047793435
 20
-153.1740576241
 10
692.8999440293
 20
-157.4826611652
 10
693.6396059111
 20
-161.8820553325
 10
694.6200800304
 20
-166.3503225656
 10
695.8364817146
 20
-170.865202182
 10
697.2827509117
 20
-175.4042012785
 10
698.9516823813
 20
-179.9447067899
 10
700.8349615906
 20
-184.4640981462
 10
702.9232061376
 20
-188.9398599669
 10
705.2060124928
 20
-193.3496942319
 10
707.6720078298
 20
-197.6716313685
 10
710.308906684
 20
-201.8841397034
 10
713.1035721577
 20
-205.966232732
 10
716.0420813684
 20
-209.8975736722
 10
719.1097948108
 20
-213.658576781
 10
722.2914292908
 20
-217.2305049303
 10
725.5711340657
 20
-220.5955629536
 10
728.9325698111
 20
-223.7369863012
 10
732.3589900232
 20
-226.63912456
 10
735.833324449
 20
-229.287519423
 10
739.338264129
 20
-231.6689767204
 10
742.8563476301
 20
-233.7716321517
 10
746.3700480372
 20
-235.5850103933
 10
749.8618602717
 20
-237.1000772859
 10
753.3143883007
 20
-238.3092848426
 10
756.7104318031
 20
-239.2066088521
 10
760.0330718611
 20
-239.7875788914
 10
763.2657552491
 20
-240.0493005969
 10
766.3923769009
 20
-239.9904700843
 10
769.3973601449
 20
-239.6113804442
 10
772.2657343056
 20
-238.9139202821
 10
774.9832092873
 20
-237.9015643095
 10
777.5362467662
 20
-236.5793560329
 10
779.9121276382
 20
-234.9538826274
 10
782.0990153842
 20
-233.0332421199
 10
784.0860150394
 20
-230.8270030446
 10
785.8632274716
 20
-228.3461567737
 10
787.4217986977
 20
-225.6030627585
 10
788.7539639944
 20
-222.6113869554
 10
789.8530865811
 20
-219.3860337427
 10
790.7136906845
 20
-215.943071668
 10
791.331488818
 20
-212.2996533951
 10
791.7034031426
 20
-208.4739302506
 10
791.8275807997
 20
-204.4849617947
  0
LINE
  5
B1
330
1F
100
AcDbEntity
  8
0
  6
Continuous
 62
     7
370
    25
100
AcDbLine
 10
-331.1650679818
 20
179.5692788693
 30
0.0
 11
-539.6650679818
 21
179.5692788693
 31
0.0
  0
LINE
  5
B2
330
1F
100
AcDbEntity
  8
0
  6
Continuous
 62
     7
370
    25
100
AcDbLine
 10
-122.6650679818
 20
179.5692788693
 30
0.0
 11
-331.1650679818
 21
179.5692788693
 31
0.0
  0
LINE
  5
B3
330
1F
100
AcDbEntity
  8
0
  6
Continuous
 62
     7
370
    25
100
AcDbLine
 10
-331.1650679818
 20
19.5692788693
 30
0.0
 11
-122.6650679818
 21
19.5692788693
 31
0.0
  0
LINE
  5
B4
330
1F
100
AcDbEntity
  8
0
  6
Continuous
 62
     7
370
    25
100
AcDbLine
 10
-539.6650679818
 20
19.5692788693
 30
0.0
 11
-331.1650679818
 21
19.5692788693
 31
0.0
  0
CIRCLE
  5
B5
330
1F
100
AcDbEntity
  8
0
  6
Continuous
 62
     7
370
    25
100
AcDbCircle
 10
-331.1650679818
 20
99.5692788693
 30
0.0
 40
70.49999999999994
  0
CIRCLE
  5
B6
330
1F
100
AcDbEntity
  8
0
  6
Continuous
 62
     7
370
    25
100
AcDbCircle
 10
-331.1650679818
 20
99.5692788693
 30
0.0
 40
79.99999999999997
  0
LINE
  5
B7
330
1F
100
AcDbEntity
  8
0
  6
Continuous
 62
     7
370
    25
100
AcDbLine
 10
-539.6650679818
 20
99.5692788693
 30
0.0
 11
-539.6650679818
 21
179.5692788693
 31
0.0
  0
LINE
  5
B8
330
1F
100
AcDbEntity
  8
0
  6
Continuous
 62
     7
370
    25
100
AcDbLine
 10
-539.6650679818
 20
19.5692788693
 30
0.0
 11
-539.6650679818
 21
99.5692788693
 31
0.0
  0
LINE
  5
B9
330
1F
100
AcDbEntity
  8
0
  6
Continuous
 62
     7
370
    25
100
AcDbLine
 10
-122.6650679818
 20
99.5692788693
 30
0.0
 11
-122.6650679818
 21
179.5692788693
 31
0.0
  0
LINE
  5
BA
330
1F
100
AcDbEntity
  8
0
  6
Continuous
 62
     7
370
    25
100
AcDbLine
 10
-122.6650679818
 20
19.5692788693
 30
0.0
 11
-122.6650679818
 21
99.5692788693
 31
0.0
  0
INSERT
  5
C6
330
1F
100
AcDbEntity
  8
FORMAT
100
AcDbBlockReference
  2
SW_CENTERMARKSYMBOL_1
 10
-331.1650679818
 20
99.5692788693
 30
0.0
  0
LINE
  5
C7
330
1F
100
AcDbEntity
  8
0
  6
Continuous
 62
     7
370
    25
100
AcDbLine
 10
-18.2394674615
 20
-71.0630213111
 30
0.0
 11
-18.2394674615
 21
-488.0630213111
 31
0.0
  0
LINE
  5
C8
330
1F
100
AcDbEntity
  8
0
  6
Continuous
 62
     7
370
    25
100
AcDbLine
 10
141.7605325385
 20
-199.5630213111
 30
0.0
 11
141.7605325385
 21
-71.0630213111
 31
0.0
  0
LINE
  5
C9
330
1F
100
AcDbEntity
  8
0
  6
Continuous
 62
     7
370
    25
100
AcDbLine
 10
141.7605325385
 20
-488.0630213111
 30
0.0
 11
141.7605325385
 21
-359.5630213111
 31
0.0
  0
LINE
  5
CA
330
1F
100
AcDbEntity
  8
0
  6
Continuous
 62
     7
370
    25
100
AcDbLine
 10
141.7605325385
 20
-359.5630213111
 30
0.0
 11
269.7605325385
 21
-359.5630213111
 31
0.0
  0
LINE
  5
CB
330
1F
100
AcDbEntity
  8
0
  6
Continuous
 62
     7
370
    25
100
AcDbLine
 10
269.7605325385
 20
-199.5630213111
 30
0.0
 11
141.7605325385
 21
-199.5630213111
 31
0.0
  0
LINE
  5
CC
330
1F
100
AcDbEntity
  8
0
  6
Continuous
 62
     7
370
    25
100
AcDbLine
 10
61.7605325385
 20
-279.5630213111
 30
0.0
 11
141.7605325385
 21
-359.5630213111
 31
0.0
  0
LINE
  5
CD
330
1F
100
AcDbEntity
  8
0
  6
Continuous
 62
     7
370
    25
100
AcDbLine
 10
141.7605325385
 20
-199.5630213111
 30
0.0
 11
61.7605325385
 21
-279.5630213111
 31
0.0
  0
LINE
  5
CE
330
1F
100
AcDbEntity
  8
0
  6
Continuous
 62
     7
370
    25
100
AcDbLine
 10
141.7605325385
 20
-488.0630213111
 30
0.0
 11
-18.2394674615
 21
-488.0630213111
 31
0.0
  0
LINE
  5
CF
330
1F
100
AcDbEntity
  8
0
  6
Continuous
 62
     7
370
    25
100
AcDbLine
 10
141.7605325385
 20
-71.0630213111
 30
0.0
 11
-18.2394674615
 21
-71.0630213111
 31
0.0
  0
LINE
  5
D0
330
1F
100
AcDbEntity
  8
0
  6
Continuous
 62
     7
370
    25
100
AcDbLine
 10
269.7605325385
 20
-199.5630213111
 30
0.0
 11
269.7605325385
 21
-359.5630213111
 31
0.0
  0
ENDSEC
  0
SECTION
  2
OBJECTS
  0
DICTIONARY
  5
C
330
0
100
AcDbDictionary
281
     1
  3
ACAD_GROUP
350
D
  3
ACAD_LAYOUT
350
1A
  3
ACAD_MLINESTYLE
350
17
  3
ACAD_PLOTSETTINGS
350
19
  3
ACAD_PLOTSTYLENAME
350
E
  3
ACAD_SCALELIST
350
47
  3
DWGPROPS
350
D1
  0
DICTIONARY
  5
D
102
{ACAD_REACTORS
330
C
102
}
330
C
100
AcDbDictionary
281
     1
  0
DICTIONARY
  5
1A
102
{ACAD_REACTORS
330
C
102
}
330
C
100
AcDbDictionary
281
     1
  3
Layout1
350
1E
  3
Layout2
350
26
  3
Model
350
22
  0
DICTIONARY
  5
17
102
{ACAD_REACTORS
330
C
102
}
330
C
100
AcDbDictionary
281
     1
  3
Standard
350
18
  0
DICTIONARY
  5
19
102
{ACAD_REACTORS
330
C
102
}
330
C
100
AcDbDictionary
281
     1
  0
ACDBDICTIONARYWDFLT
  5
E
102
{ACAD_REACTORS
330
C
102
}
330
C
100
AcDbDictionary
281
     1
  3
Normal
350
F
100
AcDbDictionaryWithDefault
340
F
  0
DICTIONARY
  5
47
102
{ACAD_REACTORS
330
C
102
}
330
C
100
AcDbDictionary
281
     1
  3
A0
350
48
  3
A1
350
49
  3
A2
350
4A
  3
A3
350
4B
  3
A4
350
4C
  3
A5
350
4D
  3
A6
350
4E
  3
A7
350
4F
  3
A8
350
50
  3
A9
350
51
  3
B0
350
52
  3
B1
350
53
  3
B2
350
54
  3
B3
350
55
  3
B4
350
56
  3
B5
350
57
  3
B6
350
58
  3
B7
350
59
  3
B8
350
5A
  3
B9
350
5B
  3
C0
350
5C
  3
C1
350
5D
  3
C2
350
5E
  3
C3
350
5F
  3
C4
350
60
  3
C5
350
61
  3
C6
350
62
  3
C7
350
63
  3
C8
350
64
  3
C9
350
65
  3
D0
350
66
  3
D1
350
67
  3
D2
350
68
  0
XRECORD
  5
D1
102
{ACAD_REACTORS
330
C
102
}
330
C
100
AcDbXrecord
280
     1
  1
DWGPROPS COOKIE
  2

  3

  4

  6

  7

  8
b.kav
  9

300
=
301
=
302
=
303
=
304
=
305
=
306
=
307
=
308
=
309
=
 40
0.0
 41
2459935.575537535
 42
2459935.575537708
  1

 90
        0
  0
LAYOUT
  5
1E
102
{ACAD_REACTORS
330
1A
102
}
330
1A
100
AcDbPlotSettings
  1

  2
none_device
  4

  6

 40
0.0
 41
0.0
 42
0.0
 43
0.0
 44
0.0
 45
0.0
 46
0.0
 47
0.0
 48
0.0
 49
0.0
140
0.0
141
0.0
142
1.0
143
1.0
 70
   688
 72
     1
 73
     0
 74
     5
  7

 75
    16
147
1.0
148
0.0
149
0.0
100
AcDbLayout
  1
Layout1
 70
     1
 71
     1
 10
0.0
 20
0.0
 11
420.0
 21
297.0
 12
0.0
 22
0.0
 32
0.0
 14
1.0000000000E+20
 24
1.0000000000E+20
 34
1.0000000000E+20
 15
-1.0000000000E+20
 25
-1.0000000000E+20
 35
-1.0000000000E+20
146
0.0
 13
0.0
 23
0.0
 33
0.0
 16
1.0
 26
0.0
 36
0.0
 17
0.0
 27
1.0
 37
0.0
 76
     0
330
1B
  0
LAYOUT
  5
26
102
{ACAD_REACTORS
330
1A
102
}
330
1A
100
AcDbPlotSettings
  1

  2
none_device
  4

  6

 40
0.0
 41
0.0
 42
0.0
 43
0.0
 44
0.0
 45
0.0
 46
0.0
 47
0.0
 48
0.0
 49
0.0
140
0.0
141
0.0
142
1.0
143
1.0
 70
   688
 72
     1
 73
     0
 74
     5
  7

 75
    16
147
1.0
148
0.0
149
0.0
100
AcDbLayout
  1
Layout2
 70
     1
 71
     2
 10
0.0
 20
0.0
 11
0.0
 21
0.0
 12
0.0
 22
0.0
 32
0.0
 14
0.0
 24
0.0
 34
0.0
 15
0.0
 25
0.0
 35
0.0
146
0.0
 13
0.0
 23
0.0
 33
0.0
 16
1.0
 26
0.0
 36
0.0
 17
0.0
 27
1.0
 37
0.0
 76
     0
330
23
  0
LAYOUT
  5
22
102
{ACAD_REACTORS
330
1A
102
}
330
1A
100
AcDbPlotSettings
  1

  2
none_device
  4
Letter_(8.50_x_11.00_Inches)
  6

 40
6.35
 41
6.35
 42
6.35000508
 43
6.35000508
 44
215.9
 45
279.4
 46
0.0
 47
0.0
 48
0.0
 49
0.0
140
0.0
141
0.0
142
1.0
143
1.0
 70
  1712
 72
     1
 73
     0
 74
     0
  7

 75
     0
147
1.0
148
0.0
149
0.0
100
AcDbLayout
  1
Model
 70
     1
 71
     0
 10
0.0
 20
0.0
 11
279.4
 21
215.9
 12
0.0
 22
0.0
 32
0.0
 14
0.0
 24
0.0
 34
0.0
 15
279.4
 25
215.9
 35
0.0
146
0.0
 13
0.0
 23
0.0
 33
0.0
 16
1.0
 26
0.0
 36
0.0
 17
0.0
 27
1.0
 37
0.0
 76
     0
330
1F
331
29
  0
MLINESTYLE
  5
18
102
{ACAD_REACTORS
330
17
102
}
330
17
100
AcDbMlineStyle
  2
Standard
 70
     0
  3

 62
   256
 51
90.0
 52
90.0
 71
     2
 49
0.5
 62
   256
  6
BYLAYER
 49
-0.5
 62
   256
  6
BYLAYER
  0
ACDBPLACEHOLDER
  5
F
102
{ACAD_REACTORS
330
E
102
}
330
E
  0
SCALE
  5
48
102
{ACAD_REACTORS
330
47
102
}
330
47
100
AcDbScale
 70
     0
300
1:1
140
1.0
141
1.0
290
     1
  0
SCALE
  5
49
102
{ACAD_REACTORS
330
47
102
}
330
47
100
AcDbScale
 70
     0
300
1:2
140
1.0
141
2.0
290
     0
  0
SCALE
  5
4A
102
{ACAD_REACTORS
330
47
102
}
330
47
100
AcDbScale
 70
     0
300
1:4
140
1.0
141
4.0
290
     0
  0
SCALE
  5
4B
102
{ACAD_REACTORS
330
47
102
}
330
47
100
AcDbScale
 70
     0
300
1:5
140
1.0
141
5.0
290
     0
  0
SCALE
  5
4C
102
{ACAD_REACTORS
330
47
102
}
330
47
100
AcDbScale
 70
     0
300
1:8
140
1.0
141
8.0
290
     0
  0
SCALE
  5
4D
102
{ACAD_REACTORS
330
47
102
}
330
47
100
AcDbScale
 70
     0
300
1:10
140
1.0
141
10.0
290
     0
  0
SCALE
  5
4E
102
{ACAD_REACTORS
330
47
102
}
330
47
100
AcDbScale
 70
     0
300
1:16
140
1.0
141
16.0
290
     0
  0
SCALE
  5
4F
102
{ACAD_REACTORS
330
47
102
}
330
47
100
AcDbScale
 70
     0
300
1:20
140
1.0
141
20.0
290
     0
  0
SCALE
  5
50
102
{ACAD_REACTORS
330
47
102
}
330
47
100
AcDbScale
 70
     0
300
1:30
140
1.0
141
30.0
290
     0
  0
SCALE
  5
51
102
{ACAD_REACTORS
330
47
102
}
330
47
100
AcDbScale
 70
     0
300
1:40
140
1.0
141
40.0
290
     0
  0
SCALE
  5
52
102
{ACAD_REACTORS
330
47
102
}
330
47
100
AcDbScale
 70
     0
300
1:50
140
1.0
141
50.0
290
     0
  0
SCALE
  5
53
102
{ACAD_REACTORS
330
47
102
}
330
47
100
AcDbScale
 70
     0
300
1:100
140
1.0
141
100.0
290
     0
  0
SCALE
  5
54
102
{ACAD_REACTORS
330
47
102
}
330
47
100
AcDbScale
 70
     0
300
2:1
140
2.0
141
1.0
290
     0
  0
SCALE
  5
55
102
{ACAD_REACTORS
330
47
102
}
330
47
100
AcDbScale
 70
     0
300
4:1
140
4.0
141
1.0
290
     0
  0
SCALE
  5
56
102
{ACAD_REACTORS
330
47
102
}
330
47
100
AcDbScale
 70
     0
300
8:1
140
8.0
141
1.0
290
     0
  0
SCALE
  5
57
102
{ACAD_REACTORS
330
47
102
}
330
47
100
AcDbScale
 70
     0
300
10:1
140
10.0
141
1.0
290
     0
  0
SCALE
  5
58
102
{ACAD_REACTORS
330
47
102
}
330
47
100
AcDbScale
 70
     0
300
100:1
140
100.0
141
1.0
290
     0
  0
SCALE
  5
59
102
{ACAD_REACTORS
330
47
102
}
330
47
100
AcDbScale
 70
     0
300
1/128" = 1'-0"
140
0.0078125
141
12.0
290
     0
  0
SCALE
  5
5A
102
{ACAD_REACTORS
330
47
102
}
330
47
100
AcDbScale
 70
     0
300
1/64" = 1'-0"
140
0.015625
141
12.0
290
     0
  0
SCALE
  5
5B
102
{ACAD_REACTORS
330
47
102
}
330
47
100
AcDbScale
 70
     0
300
1/32" = 1'-0"
140
0.03125
141
12.0
290
     0
  0
SCALE
  5
5C
102
{ACAD_REACTORS
330
47
102
}
330
47
100
AcDbScale
 70
     0
300
1/16" = 1'-0"
140
0.0625
141
12.0
290
     0
  0
SCALE
  5
5D
102
{ACAD_REACTORS
330
47
102
}
330
47
100
AcDbScale
 70
     0
300
3/32" = 1'-0"
140
0.09375
141
12.0
290
     0
  0
SCALE
  5
5E
102
{ACAD_REACTORS
330
47
102
}
330
47
100
AcDbScale
 70
     0
300
1/8" = 1'-0"
140
0.125
141
12.0
290
     0
  0
SCALE
  5
5F
102
{ACAD_REACTORS
330
47
102
}
330
47
100
AcDbScale
 70
     0
300
3/16" = 1'-0"
140
0.1875
141
12.0
290
     0
  0
SCALE
  5
60
102
{ACAD_REACTORS
330
47
102
}
330
47
100
AcDbScale
 70
     0
300
1/4" = 1'-0"
140
0.25
141
12.0
290
     0
  0
SCALE
  5
61
102
{ACAD_REACTORS
330
47
102
}
330
47
100
AcDbScale
 70
     0
300
3/8" = 1'-0"
140
0.375
141
12.0
290
     0
  0
SCALE
  5
62
102
{ACAD_REACTORS
330
47
102
}
330
47
100
AcDbScale
 70
     0
300
1/2" = 1'-0"
140
0.5
141
12.0
290
     0
  0
SCALE
  5
63
102
{ACAD_REACTORS
330
47
102
}
330
47
100
AcDbScale
 70
     0
300
3/4" = 1'-0"
140
0.75
141
12.0
290
     0
  0
SCALE
  5
64
102
{ACAD_REACTORS
330
47
102
}
330
47
100
AcDbScale
 70
     0
300
1" = 1'-0"
140
1.0
141
12.0
290
     0
  0
SCALE
  5
65
102
{ACAD_REACTORS
330
47
102
}
330
47
100
AcDbScale
 70
     0
300
1-1/2" = 1'-0"
140
1.5
141
12.0
290
     0
  0
SCALE
  5
66
102
{ACAD_REACTORS
330
47
102
}
330
47
100
AcDbScale
 70
     0
300
3" = 1'-0"
140
3.0
141
12.0
290
     0
  0
SCALE
  5
67
102
{ACAD_REACTORS
330
47
102
}
330
47
100
AcDbScale
 70
     0
300
6" = 1'-0"
140
6.0
141
12.0
290
     0
  0
SCALE
  5
68
102
{ACAD_REACTORS
330
47
102
}
330
47
100
AcDbScale
 70
     0
300
1'-0" = 1'-0"
140
12.0
141
12.0
290
     0
  0
ENDSEC
  0
EOF
